Make your own free website on Tripod.com

TABLATURAS

DIVERSAS

 

 

BEATLES - HELP

 

t:Help}

{st:Lennon/McCartney}

{define: A6 1 2 2 2 2 0 0}

[Hm]Help!  I need somebody  [G]Help!   not just anybody 

[E7]Help!  You know i need someone   [A]HELP!

 

{c:First verse:}

[A]When I was young oh so much [C#m]younger than today

[F#m]I never needed anybody's [D]help in [G]any [A]way

But now these day have gone and I'm [C#m]not so self assured

[F#m]And now I find I need you like I've [D]never [G]done be[A]fore

 

{soc}

[Hm]Help me if you can I'm feeling down

And I [G]do appreciate your being 'round

[E7]Help me get my feet back on the ground

Won't you [A]please please help [A]me?

#         ^(riff)

{eoc}

 

{c:Second Verse:}

[A]And now my life has changed in [C#m]oh so many ways

[F#m]My independence seems to [D]vanish in [G]the [A]haze

But every now and then I [C#m]feel so insecure

[F#m]And now I find I need you like I've [D]never [G]done be[A]fore

 

{c:Repeat Chorus}

 

{c:Repeat first verse}

 

{c:Repeat Chorus until last line, then:}

Won't you [A]please please help [F#m]me

#       ^(riff)

Help me   Help [A]me.  O[A6]ohm.

#

#      Help! signature riff:

#

#     E ------------------------------------

#     B --------0-------0-------0-------0---

#     G ------0-------0-------0-------0-----

#     D ----5-------4-------3-------2-------

#     A --7-------6-------5-------4---------

#     E ------------------------------------

 

BEATLES - I WANNA HOLD YOUR HAND

 



Intro  *Guitar 1 plays Chords above Tab, Guitar 2 plays Tab.

    C*        D*          C*         D*       C*

E|------------|-------------------|----------------------|

B|------------|---3---------------|--3-------------------|

G|------0-----|---2---2------0----|--2----2--------0-----|

D|---2-----0--|---0---0---2-----0-|--0----0----2-------0-|

A|------------|-------------------|----------------------|

E|------------|-------------------|----------------------|

  D5 D6 D5  D6 D5   D6 D5 D6

E|------------|-------------------|

B|------------|-------------------|

G|------------|---5b--------------|

D|------------|-------------------|

A|------------|-------------------|

E|------------|-------------------|

                        Oh Yeah

 

Verse 1 *You can play the Power Chords, 

when noted or play the Normal Chords.

 

G5   G6 G5       D5      D6 D5   Gtr Riff 1(Bottom)

I'll    tell you something

E5                   B7

I think you'll understand.

   G5 G6 G5      D5  D6  D5   Gtr Fill 1

When I  say that something.

E5                    B7

I wanna hold your hand

 

Chorus

C        D         G      Em

I wanna hold your hand.

C        D         G

I wanna hold your hand.

                       

Verse 2 

Oh please say to me you'll let me be your man.

And please say to me you'll let me hold your hand.

 

(Repeat Chorus)

 

Bridge

Dm           G                 C       Am

And when I touch you I feel happy inside.

Dm            G               C

It's such a feeling that my love, 

         D*    C*       D*   C*       D*  D5 D6 D5 D6 D5

I can't hide,  I can't hide, I can't hide.

 

Verse 3 

Yeah you got that somethin', I think you'll understand.

When I say that something.  I wanna hold your hand.

 

(Repeat Chorus)

(Repeat Bridge)

 

Verse 4 

Yeah you got that somethin', I think you'll understand.

When I feel that something.  I wanna hold your hand.

 

Outro Chorus

C        D         G      Em

I wanna hold your hand.

C        D         B7

I wanna hold your hand.

 

C        D         C     (Gtr Outro Riff 2)   G

I wanna hold your hand.

 

Guitar Riff 1

E|----------------------------

B|---------------5b-----------

G|----------------------------

D|----------------------------

A|---5----4----5----6----7----

E|----------------------------

 

 

Guitar Outro Riff 2

E|-------------------------3-----

B|-------------------------0-----

G|-------------------------0-----

D|----2--0-------2---0-----0--------

A|-3----------3------------2--------

E|-------------------------3-----

 

Chords as used in this song.

    EADGBE

C*- X3555X 

D*- X5777X

D5- X57XXX

D6- X58XXX

G5- 35XXXX

G6- 36XXXX

E5- 022XXX

B7- X21202

C-  X32010

D-  XX0232

G-  320001

Em- 022000

 

 

      TEMPLETION - MY GIRL

 

My Girl

by W. "Smokey" Robinson, R. White (c) 1964, 1965

 

e|-------------|-------------|-----------1-|-----------1-|

B|-----------1-|-----------1-|-------1-3---|-------1-3---|

G|-------0-2---|-------0-2---|---0-2-------|---0-2-------|

D|---0-2-------|---0-2-------|-3-----------|-3-----------|

A|-3-----------|-3-----------|-------------|-------------|

E|-------------|-------------|-------------|-------------|

 

         C        F           C

I've got sunshine on a cloudy day

              C            F                      C

And when it's cold outside, I've got the month of May

 

CHORUS:

  C Dm    F   G

  I guess you say,

  C        Dm      F         G

  What can make me feel this way?

  C

  My girl...

                F         G7

  Talkin' 'bout my girl

 

I've got so much honey the birds envy me

I've got a sweeter song (baby), than the birds and the bees

(Chorus)

 

I don't need no money, fortune or fame

I've got all the riches, baby, one man can claim

(Chorus)

 

 

Enjoy, STEVE                                                          

 

 

-> TIMM (1.0 Final 1) The Ideal Macintosh Mail reader