Make your own free website on Tripod.com

Walk

 

intro :   

   

   F

E---------------------------------------------

B--6-6-6-6-6-6-6-6-------6---6-6-6-6-6-6------

G--5-5-5-5-5-5-5-5-------5---5-5-5-5-5-5------

D---------------------------------------------

A---------------------------------------------

E---------------------------------------------

 

 

 

[with rhythm 1  2x]

I'm going for a walk, not the after dinner kind

I'm gonna use my hands and I'm gonna use my mind

 

[with rhythm 2  4x]

And who the hell are you to tell me what to do?

You can't even tie your own haggard shoes

 

[with rhythm 3]

Your closet is a mess, your backyard's falling down

And I have no grand ideas or intentions of sticking around

 

 

[with rhythm 1  4x]

So I'm going for a walk, not the after dinner kind

I'm gonna use my hands and I'm gonna use my mind

And I'm gonna build a world independent and exempt

All alone I'll be an empire with no mortgage and no rent

 

[with rhythm 2  4x]

And I don't need to live in your stinking zoo

You can't even feed the animals donated to you

 

[with rhythm 3]

Your storage sheds are ramshackled, flies decorate the walls

And you expect me to die here in this shit-filled tiny stall?

 

 

F  (like intro)

 

 

I'm going for a walk!

 

(solo)

E----------------------------------------------

B-6-6-6-------------6-------6------------------

G-------7-7-5-7---3---5---3---5-4---4-5-4-3----

D----------------------------------------------

A----------------------------------------------

E----------------------------------------------

 

E----------------------------------------------

B-6-6-6-5-6-5-6--5-6-5-8-5-6-5-----6-6---------

G------------------------------5-7-------------

D----------------------------------------------

A----------------------------------------------

E----------------------------------------------

 

[with rhythm 2 8x]

And I know you're watching everything I do

Call me threat to your children, call me socially unglued

Call me master of insanity, unable to relate

Call me lazy, bane, and filthy

Call me monstrous reprobaaa

 

  aaaaaaaate........

  A

E-x-x-x-x-x-x-x-x-5-5-5-5-5-5-5-5--------------

B-x-x-x-x-x-x-x-x-5-5-5-5-5-5-5-5--------------

G-x-x-x-x-x-x-x-x-x-x-x-x-x-x-x-x--------------

D-7-7-7-7-7-7-7-7-x-x-x-x-x-x-x-x--------------

A-7-7-7-7-7-7-7-7-x-x-x-x-x-x-x-x--------------

E-5-5-5-5-5-5-5-5-x-x-x-x-x-x-x-x--------------

 

[with rhythm 1]

So I'm going for a walk and there's nothing you can do

'Cuz I don't have to live like you

I'm going for a walk, going for a walk....

 

F (like intro)

 

I'm going for a walk.